jueves, 12 de abril de 2012

Te he echado de menos. Pablo alborán (versión para guitarra)



   Se trata de un borrador, no la tengo acabada. Una versión para guitarra de un buen tema y un buen compositor, aunque no tenga nada que ver con lo que suelo colgar en este blog. Quisiera grabarla, después de revisarla, quizás hacer una versión metal, el caso es que me apetecía exponerla por si alguién quiere tocarla, ó le sirve para hacer una versión.
    Saludos.








Te he echado de menos. Pablo Alborán

1.--------------------------------------------17/19-17
2.-8----8-10-10/12---8h10-8/10------------------------
3.---12------------------------12---19h21h19----------
4.----------------------------------------------------
5.----------------------------------------------------
6.----------------------------------------------------

1.------------------------------10-10/12-10-------10--
2.-------------8----8-10-10/12--------------10-8-----8
3.-------19------12-----------------------------------
4.-17h19----------------------------------------------
5.----------------------------------------------------
6.----------------------------------------------------

1.-10-------------------------------------------------
2.----8-----7h8h7h5-------8---------7h8h7-------------
3.--------9---------7-9-----9-------------7-----------
4.----------------------------12-9-----------7h9h10--7
5.----------------------------------------------------
6.----------------------------------------------------

(0:22)
1.----------------------------------------------------
2.----------------------------------------------------
3.---------7-4----------7-4---4-4/5/4-----------------
4.-5-5h7-7------5-5h7-7----------------5---4-5-4-5-4--
5.----------------------------------------------------
6.----------------------------------------------------

1.------------------------------------------------
2.------------------------------------------------
3.-2----------------------------------------------
4.---4---2h4h5---4-5-4-5-2---4/7---7h9h7h5--------
5.-----------------------------------------9-7----
6.---------------------------------------------10-

1.------------------------------------------------
2.------------------------------------------------
3.------------------7-4---4h5h7-5-4---------------
4.----------5-5h7-7-----------------5---4-5-4-5-4-
5.-5/7/5------------------------------------------
6.------------------------------------------------

1.------------------------------------
2.--------------------5---7h8h7h5-----
3.-2------------------------------7-5-
4.---4---2h4h5-4-5-7------------------
5.------------------------------------
6.------------------------------------

(0:49)
1.---------------------------------------------------
2.---------------------------------------------------
3.-------------------------------------9-------7-----
4.-2-4-/5---4-5-/7---5-7-/9---9-10-/12---12-10---10-9
5.---------------------------------------------------
6.---------------------------------------------------

(1:03)
1.-----------------------------------------------
2.-----------------------------------------------
3.-----------------------------------4-5-4---5-4-
4.-9-9h10-9h10-9---9-9h10h9--------9-------7-----
5.--------------------------12-10----------------
6.-----------------------------------------------

1.---------------------------------------------
2.------------------12-12h13h12h13-12---12-12h-
3.---------------------------------------------
4.-5-5h7h9-/10-9-7-----------------------------
5.---------------------------------------------
6.---------------------------------------------

1.------------------7h8h7----8h7------7h8---5-/7
2.-13h12---------12-------10-----8-10-----------
3.--------14-12---------------------------------
4.----------------------------------------------
5.----------------------------------------------
6.----------------------------------------------

(1:19)
1.--------------------------10-------------------
2.-8----8-10-10/12---8----8----8/10--------------
3.---12----------------12-----------12---19h21h19
4.-----------------------------------------------
5.-----------------------------------------------
6.-----------------------------------------------


1.-17h19h17---22------------------10/12-10------
2.----------------8----8-10-10/12----------10-8-
3.------------------12--------------------------
4.----------------------------------------------
5.----------------------------------------------
6.----------------------------------------------

(1:32)
1.----------------------------------------------
2.----------------------------------------------
3.---------7-4---------7-4---4-4h5h4-2----------
4.-5-5h7-7-----5-5h7-7-----------------5---4h5h4
5.----------------------------------------------
6.----------------------------------------------

1.----------------------------------------------
2.----------------------------------------------
3.----------------------------2----------4h5h7--
4.-h5h4---2h4h5---4h5h4h5-4-5----5/7/5h7--------
5.----------------------------------------------
6.----------------------------------------------




(1:47)
1.----------------------------------------------
2.----------------------------------------------
3.---------7-4---4-4h5h4-----------4h5h4---4----
4.-5-5h7-7---------------7-/9---7--------7---5--
5.----------------------------------------------
6.----------------------------------------------


1.-------------------------------
2.-------------------------------
3.-------------2-----------------
4.-4-5-4-5---4---4---2h4h5-4-5-7-
5.-------------------------------
6.------------------------------- 

1.---------------------------------------------------
2.---------------------------------------------------
3.-------------------------------------9-------7-----
4.-2-4-/5---4-5-/7---5-7-/9---9-10-/12---12-10---10-9
5.---------------------------------------------------
6.---------------------------------------------------

1.-----------------------------------------------
2.-----------------------------------------------
3.-----------------------------------4-5-4---5-4-
4.-9-9h10-9h10-9---9-9h10h9--------9-------7-----
5.--------------------------12-10----------------
6.-----------------------------------------------

1.---------------------------------------------
2.------------------12-12h13h12h13-12---12-12h-
3.---------------------------------------------
4.-5-5h7h9-/10-9-7-----------------------------
5.---------------------------------------------
6.---------------------------------------------


1.------------------7h8h7----8h7------7h8---5-/7
2.-13h12---------12-------10-----8-10-----------
3.--------14-12---------------------------------
4.----------------------------------------------
5.----------------------------------------------
6.----------------------------------------------


1.-7----------7---7----------7-----------7h8h7h8h7
2.---8-7-8-10---8---8-7-8-10---10---8h10----------
3.------------------------------------------------
4.------------------------------------------------
5.------------------------------------------------
6.------------------------------------------------

1.-------------------------------------------------
2.-------------------------------------------------
3.-------4---4-5-4-5---7-5-4-----------------------
4.-4-5-7---7-----------------7-9-10-9-7--------7---
5.--------------------------------------10-12----10
6.-------------------------------------------------

1.--------------
2.--------------
3.--------------
4.-7-9-7----7---
5.-------10-----
6.--------------

(solo)(2:56)
1.---------------------------------------------------
2.-------------5h7-----------------------------------
3.-----------9-----7---------------------------------
4.-----5h7h5----------7---5h7-5---4-5-4----4---------
5.-5h7-----------------------------------7---7-5h7h5-
6.---------------------------------------------------

1.-----------------------------------------------5---
2.---------------10---8-7----------------------7---8-
3.---------11-12----------9------------------7-------
4.------12------------------7-/5---5h7h5-7-----------
5.-5h7-----------------------------------------------
6.---------------------------------------------------

1.-----5------10-12-----------5-----------------------
2.-7-8---------------7-8h10h8---------7h8h7-----------
3.--------7-----------------------7h9-------9-7---9h7-
4.----------------------------------------------9-----
5.----------------------------------------------------
6.----------------------------------------------------

1.-----------------------5-7-10-7-12-14(15)-14-12-10-7
2.----------------------------------------------------
3.--------------7-----7-------------------------------
4.-9h7h5----5h7---5-7---------------------------------
5.-------7--------------------------------------------
6.----------------------------------------------------

1.------------------------------------------------
2.-10-8-----8h10h8-8---/12-10---------------------
3.-------9--------------------12-11---------------
4.----------------------------------14-12---------
5.----------------------------------------14-12-10
6.------------------------------------------------

1.------------------------------7-------------
2.------------------------/8-10----/7-8-10----
3.-/12-11------/16-14-------------------------
4.--------14----------17----------------------
5.--------------------------------------------
6.--------------------------------------------

1.------------------------------------------------
2.------------------------------------------------
3.----------------------------------4-5-4---5-4---
4.-9-9h10h9h10h9------------9-----9-------7------5
5.----------------12-10-12-----10-----------------
6.------------------------------------------------

1.---------------------------------------------------
2.---------------12-12h13h12h13h12--------------13---
3.----------------------------------16-17-16-14----12
4.-5h7h9/10-9-7--------------------------------------
5.---------------------------------------------------
6.---------------------------------------------------


1.-----------------------------------------
2.-----------------------------------------
3.-16-17-16--------------12-14-16-14-------
4.----------19-17-21-19--------------17-16-
5.-----------------------------------------
6.-----------------------------------------

1.--------------------------------(repetir 3 veces)
2.--------------------------------
3.-------------------2-4----------
4.-/5-4---/9-7----/5-----/4-5-7---
5.------7------10-----------------
6.--------------------------------

1.--------10---------3-------------
2.-8----8----10/12---3-------------
3.---12--------------0---/2h0------
4.-------------------0-------------
5.-------------------2-------------
6.-------------------3-------------





No hay comentarios:

Publicar un comentario en la entrada