.

viernes, 8 de febrero de 2013

A marcha das meigas. Mago de oz

    Para todos esos seguidores de Mago de Oz que buscan todos los días sus tabs en mi blog, gracias a todos, yo solo soy otro seguidor mas de este grupo tan grande. Saludos.

Escucha el tema.



A marcha das meigas. Mago de oz



1.----------------------------------------------------

2.------/7-5---------------5h7-7-----5h7---5h7h5---7-5

3.-----------7---6h7h6-7-8-------6h7-------------7----

4.---7------------------------------------------------

5.---5------------------------------------------------

6.----------------------------------------------------



1.--------------------------------------------------

2.-/7-5---------------5h7-7-----5-7h5---7-5-----5---

3.------7---6h7h6-7-8-------6h7-------7-----7-6---7-

4.--------------------------------------------------

5.--------------------------------------------------

6.--------------------------------------------------



1.------5---5-5---------5---5-5---------5---5-5--------

2.-7h8----------8---7h8---------8---7h8---------8-7h8-5

3.-----------------------------------------------------

4.-----------------------------------------------------

5.-----------------------------------------------------

6.-----------------------------------------------------

                     (repetir 2 veces)

1.----------------------------------------------------

2.-/7-5------------------5h7-7-----5-7h5---7-5-----5--

3.------7---6h7h6---7-8--------6h7-------7-----7-6---7

4.----------------------------------------------------

5.----------------------------------------------------

6.----------------------------------------------------



1.------------------------------------------------------

2.-10----------10----------12----------12----------12-10

3.----11----11----11----11----11----11----11----11------

4.-------12----------12----------12----------12---------

5.------------------------------------------------------

6.------------------------------------------------------



1.------------------------------------------------------

2.----------10----------10-8--------8--------10---------

3.-11----11----11----11------9----9---9----9----11----11

4.----12----------12-----------11-------11---------12---

5.------------------------------------------------------

6.------------------------------------------------------



1.----------------------------------------------------

2.-10----------12----------12--------12-10------------

3.----11----11----11----11----11-----------12-11-12-11

4.-------12----------12----------12-------------------

5.----------------------------------------------------

6.----------------------------------------------------



1.---------------           1.------------------------------

2.--------------- (repetir  2.------------------------------

3.---------12-11-  2 veces) 3.-11-9----11-9---------9-------

4.---14-12-------           4.------12------12---11---12----

5.---------------           5.-----------------------------7

6.---------------           6.-----------------------------5


No hay comentarios:

Publicar un comentario en la entrada

Nota: solo los miembros de este blog pueden publicar comentarios.